What?s Up People!? By Maximum The Hormone

Intro Riff:
----------------------------------------------------------------------|
----------------------------------------------------------------------|
----------------------------------------------------------------------|
-3-4-0-3-0-3-4-0-3-0-3-4-0-3-0-3-0-3-0--------------------------------|
---------------------------------0-3-0--------------------------------|
---------------------------------0-3-0--------------------------------|
repeat until 13 sec

Main Riff:
------------------------------------------------------------------------|
------------------------------------------------------------------------|
------------------------------------------------------------------------|
-3-4-2--33-4-2--33-4-2--33-4-2--33-4-2--33-4-2--33-4-2--33-4-2----------|
-3-4-2--33-4-2--33-4-2--33-4-2--33-4-2--33-4-2--33-4-2--33-4-2----------|
-3-4-2--33-4-2--33-2-2--33-4-2--33-4-2--33-4-2--33-4-2--33-4-2----------|
repeat Until 24 sec.

Verse Riff:
--------------------------------------------------------------------|
--------------------------------------------------------------------|
--------------------------------------------------------------------|
--------------------------------------------------------------------|
----------------------------3-0-32----------------------------------|
-0-0-00-0-0-0-00-0-0-0-00-0-3-0-32----------------------------------|
repeat until 36 sec

Verse 2
--------------------------------------------------------------------|
--------------------------------------------------------------------|
--------------------------------------------------------------------|
-3-4-2--33-4-2--33-4-2--33-4-2--3-4-2--33-4-2--33-4-2--33-4-2-------|
-3-4-2--33-4-2--33-4-2--33-4-2--3-4-2--33-4-2--33-4-2--33-4-2-------|
-3-4-2--33-4-2--33-2-2--33-4-2--3-4-2--33-4-2--33-4-2--33-4-2-------|
repeat until 46 sec then repeat main riff until 1:00

after that at 1:12
Pre-Chorus
------------------------------------------------------------------------|
------------------------------------------------------------------------|
------------------------------------------------------------------------|
------------------------------------------------------------------------|
------------------------------------------------------------------------|
-0-0-0-0-3-3-3-3-5-5-5-5-6-6-5-3-0-0-0-0-0-3-3-3-3-5-5-5-5-6-6-5-3-0----|

at 1:23
Chorus Riff
--------------------------------------------------------------------|
--------------------------------------------------------------------|
-7--7---------------------5-5-7--7---------------------5-5----------|
-7--7---------------------5-5-7--7---------------------5-5----------|
-5--5-3-3-3-3-5-5-5-5-6-6-3-3-5--5-3-3-3-3-5-5-5-5-6-6-3-3----------|
------3-3-3-3-5-5-5-5-6-6----------3-3-3-3-5-5-5-5-6-6--------------|

At 1:36
Break riff
--------------------------------------------------------------------|
--------------------------------------------------------------------|
--------------------------------------------------------------------|
--------------------------------------------------------------------|
--------------------------------------------------------------------|
-0-0-3-0-3-0--0-3-0-3-0--0-3/5--0-0-3-0-3-0--0-3-0-3-0--0-5/6-------|

At 1:47
Breakdown Riff
-----------------------------------------|
-----------------------------------------|
-----------------------------------------|
-----2------2------2------2--------------|
-----2------2------2------2--------------|
-3-4-2--3-4-2--3-4-2--3-4-2--------------|

At 2:50
Groove 1
--------------------------------------------------------------------|
--------------------------------------------------------------------|
--------------------------------------------------------------------|
--------------------------------------------------------------------|
--------------------------------------------------------------------|
-0--00-3-0--3-0--0-3-0-35--0--0-3-0--3-0--00-3-0-56-----------------|

at 3:02
Groove 2
--------------------------------------------------------------------|
--------------------------------------------------------------------|
--------------------------------------------------------------------|
--------------------------------------------------------------------|
--------------------------------------------------------------------|
-0--0-3-0--3-0--00-3-0-35--0--0-3-0--3-0--00-3-0-56-----------------|

to end it play:
--------------------------------------------------------------------|
--------------------------------------------------------------------|
--------------------------------------------------------------------|
--------------------------------------------------------------------|
--------------------------------------------------------------------|
-0--0-3-0--0--------------------------------------------------------|

at 3:14
-----------------------------------------------------------------|
-----------------------------------------------------------------|
-----------------------------------------------------------------|
-----------7------------------------7----------------------------|
------3----5-------------------3----5----------------------------|
-0--0-3-0----0--00-3-0-35--0-0-3-0----0--00-3-0-5/6--------------|

After that play the pre-choruse, but buildup by releasing the palm muting gradually and
the single notes into power chords until 3:50

Outro
----------------------------------------------------------------------|
----------------------------------------------------------------------|
----------------------------------------------------------------------|
-3-4-0-3-0-3-4-0-3-0-3-4-0-3-0-3-0-3-0--------------------------------|
-3-4-0-3-0-3-4-0-3-0-3-4-0-3-0-3-0-3-0--------------------------------|
-3-4-0-3-0-3-4-0-3-0-3-4-0-3-0-3-0-3-0--------------------------------|

It?s just noise after that
I?ll let you figure out the palm muting on your own
Expect more MTH tabs soon and KILL ALL ROKIMPO PEOPLE!
 (400x273, 30Kb)

  • Big girls don’t cry….

  • Без заголовка 1030

  • Sade ft. ATB - And I Miss You

  • Ваш комментарий


    Вы должны войти в систему, чтобы оставить комментарий.